new transposer      circle of 5ths    wap

E Spanish Gypsy Scale



012345678910111213141516171819202122






  Lefthanded scale finder   Patterns Chords Scales
 
Scale - Spanish Gypsy
1,b2,3,4,5,b6,b7

3-th pattern
Root note - E

Guitar Tuning:


Tuning:

Vertical Patterns
Horizontal (4 notes per string)
Horizontal (3 notes per string)
Shifted v1
Shifted v2

|------7--5--4------------------------------------------------
|---------------6--5--3---------------------------------------
|------------------------5--4--2------------------------------
|---------------------------------6--3--2---------------------
|------------------------------------------5--3--2------------
|---------------------------------------------------5--4------

|------------------------------------------------4--5--7------
|---------------------------------------3--5--6---------------
|------------------------------2--4--5------------------------
|---------------------2--3--6---------------------------------
|------------2--3--5------------------------------------------
|------4--5---------------------------------------------------

Copyright © 2004-2009 All-Guitar-Chords.com. All rights reserved.