new transposer      circle of 5ths    wap

D Phrygian Scale



012345678910111213141516171819202122






  Lefthanded scale finder   Patterns Chords Scales
 
Scale - Phrygian
1,b2,b3,4,5,b6,b7

3-th pattern
Root note - D

Guitar Tuning:


Tuning:

Vertical Patterns
Horizontal (4 notes per string)
Horizontal (3 notes per string)
Shifted v1
Shifted v2

|------6--5--3------------------------------------------------
|---------------6--4--3---------------------------------------
|------------------------5--3--2------------------------------
|---------------------------------5--3------------------------
|---------------------------------------6--5--3---------------
|------------------------------------------------6--5--3------

|------------------------------------------------3--5--6------
|---------------------------------------3--4--6---------------
|------------------------------2--3--5------------------------
|------------------------3--5---------------------------------
|---------------3--5--6---------------------------------------
|------3--5--6------------------------------------------------

Copyright © 2004-2017 All-Guitar-Chords.com. All rights reserved.