new transposer      circle of 5ths    wap

C Major Scale



012345678910111213141516171819202122






  Lefthanded scale finder   Patterns Chords Scales
 
Scale - Major
1,2,3,4,5,6,7

3-th pattern
Root note - C

Guitar Tuning:


Tuning:

Vertical Patterns
Horizontal (4 notes per string)
Horizontal (3 notes per string)
Shifted v1
Shifted v2

|-----19-17-15-13----------------------------------------------------------------------------
|---------------------17-15-13-12------------------------------------------------------------
|-------------------------------------14-12-10--9---------------------------------------------
|----------------------------------------------------12-10--9--7-------------------------------
|------------------------------------------------------------------10--8--7--5------------------
|--------------------------------------------------------------------------------8--7--5--3------

|----------------------------------------------------------------------------13--15--17--19------
|------------------------------------------------------------12--13--15--17----------------------
|---------------------------------------------9--10--12--14--------------------------------------
|-------------------------------7--9--10--12-----------------------------------------------------
|------------------5--7--8--10-------------------------------------------------------------------
|------3--5--7--8--------------------------------------------------------------------------------

Copyright © 2004-2017 All-Guitar-Chords.com. All rights reserved.