new transposer      circle of 5ths    wap

D Major Scale



012345678910111213141516171819202122






  Lefthanded scale finder   Patterns Chords Scales
 
Scale - Major
1,2,3,4,5,6,7

20-th pattern
Root note - D

Guitar Tuning:


Tuning:

Vertical Patterns
Horizontal (4 notes per string)
Horizontal (3 notes per string)
Shifted v1
Shifted v2

|-----22-21-19------------------------------------------------------
|-----------------22-20-19------------------------------------------
|-----------------------------21-19----------------------------------
|-------------------------------------21-19--------------------------
|---------------------------------------------22-21-19--------------
|---------------------------------------------------------22-21------

|-----------------------------------------------------19-21-22------
|-----------------------------------------19-20-22------------------
|---------------------------------19-21------------------------------
|-------------------------19-21--------------------------------------
|-------------19-21-22----------------------------------------------
|-----21-22----------------------------------------------------------

Copyright © 2004-2017 All-Guitar-Chords.com. All rights reserved.