new transposer      circle of 5ths    wap

G Mixolydian Scale



012345678910111213141516171819202122






  Lefthanded scale finder   Patterns Chords Scales
 
Scale - Mixolydian
1,2,3,4,5,6,b7

2-th pattern
Root note - G

Guitar Tuning:


Tuning:

Vertical Patterns
Horizontal (4 notes per string)
Horizontal (3 notes per string)
Shifted v1
Shifted v2

|------5--3--1---------------------------------------------
|---------------5--3--1------------------------------------
|------------------------4--2------------------------------
|------------------------------5--3--2---------------------
|---------------------------------------5--3--2------------
|------------------------------------------------5--3------

|---------------------------------------------1--3--5------
|------------------------------------1--3--5---------------
|------------------------------2--4------------------------
|---------------------2--3--5------------------------------
|------------2--3--5---------------------------------------
|------3--5------------------------------------------------

Copyright © 2004-2009 All-Guitar-Chords.com. All rights reserved.