new transposer      circle of 5ths    wap

E Harmonic Minor Scale



012345678910111213141516171819202122






  Lefthanded scale finder   Patterns Chords Scales
 
Scale - Harmonic Minor
1,2,b3,4,5,b6,7

2-th pattern
Root note - E

Guitar Tuning:


Tuning:

Vertical Patterns
Horizontal (4 notes per string)
Horizontal (3 notes per string)
Shifted v1
Shifted v2

|------5--3--2------------------------------------------------
|---------------5--4--1---------------------------------------
|------------------------4--2---------------------------------
|------------------------------5--4--2--1---------------------
|------------------------------------------3--2---------------
|------------------------------------------------5--3--2------

|------------------------------------------------2--3--5------
|---------------------------------------1--4--5---------------
|---------------------------------2--4------------------------
|---------------------1--2--4--5------------------------------
|---------------2--3------------------------------------------
|------2--3--5------------------------------------------------

Copyright © 2004-2017 All-Guitar-Chords.com. All rights reserved.