new transposer      circle of 5ths    wap

C Pentatonic Minor Scale



012345678910111213141516171819202122






  Lefthanded scale finder   Patterns Chords Scales
 
Scale - Pentatonic Minor
1,b3,4,5,b7

2-th pattern
Root note - C

Guitar Tuning:


Tuning:

Vertical Patterns
Horizontal (4 notes per string)
Horizontal (3 notes per string)
Shifted v1
Shifted v2

|------6--3--1---------------------------------
|---------------4--1---------------------------
|---------------------3------------------------
|------------------------5--3--1---------------
|---------------------------------3--1---------
|---------------------------------------3------

|---------------------------------1--3--6------
|---------------------------1--4---------------
|------------------------3---------------------
|---------------1--3--5------------------------
|---------1--3---------------------------------
|------3---------------------------------------

Copyright © 2004-2017 All-Guitar-Chords.com. All rights reserved.