new transposer      circle of 5ths    wap

C Lydian Scale



012345678910111213141516171819202122






  Lefthanded scale finder   Patterns Chords Scales
 
Scale - Lydian
1,2,3,#4,5,6,7

2-th pattern
Root note - C

Guitar Tuning:


Tuning:

Vertical Patterns
Horizontal (4 notes per string)
Horizontal (3 notes per string)
Shifted v1
Shifted v2

|------5--3--2------------------------------------------------
|---------------5--3--1---------------------------------------
|------------------------4--2---------------------------------
|------------------------------5--4--2------------------------
|---------------------------------------5--3--2---------------
|------------------------------------------------5--3--2------

|------------------------------------------------2--3--5------
|---------------------------------------1--3--5---------------
|---------------------------------2--4------------------------
|------------------------2--4--5------------------------------
|---------------2--3--5---------------------------------------
|------2--3--5------------------------------------------------

Copyright © 2004-2009 All-Guitar-Chords.com. All rights reserved.