new transposer      circle of 5ths    wap

A Pentatonic Minor Scale



012345678910111213141516171819202122






  Lefthanded scale finder   Patterns Chords Scales
 
Scale - Pentatonic Minor
1,b3,4,5,b7

2-th pattern
Root note - A

Guitar Tuning:


Tuning:

Vertical Patterns
Horizontal (4 notes per string)
Horizontal (3 notes per string)
Shifted v1
Shifted v2

|------5--3------------------------------------
|------------5--3--1---------------------------
|---------------------2------------------------
|------------------------5--2------------------
|------------------------------5--3------------
|------------------------------------5--3------

|------------------------------------3--5------
|---------------------------1--3--5------------
|------------------------2---------------------
|------------------2--5------------------------
|------------3--5------------------------------
|------3--5------------------------------------

Copyright © 2004-2009 All-Guitar-Chords.com. All rights reserved.