new transposer      circle of 5ths    wap

E Spanish Gypsy Scale



012345678910111213141516171819202122






  Lefthanded scale finder   Patterns Chords Scales
 
Scale - Spanish Gypsy
1,b2,3,4,5,b6,b7

19-th pattern
Root note - E

Guitar Tuning:


Tuning:

Vertical Patterns
Horizontal (4 notes per string)
Horizontal (3 notes per string)
Shifted v1
Shifted v2

|-----22-20-19--------------------------------------------------------------
|-----------------22-21-18--------------------------------------------------
|-----------------------------21-19------------------------------------------
|-------------------------------------22-21-19-18--------------------------
|-----------------------------------------------------20-19------------------
|-------------------------------------------------------------22-20-19------

|-------------------------------------------------------------19-20-22------
|-------------------------------------------------18-21-22------------------
|-----------------------------------------19-21------------------------------
|-------------------------18-19-21-22--------------------------------------
|-----------------19-20------------------------------------------------------
|-----19-20-22--------------------------------------------------------------

Copyright © 2004-2009 All-Guitar-Chords.com. All rights reserved.