new transposer      circle of 5ths    wap

F#/Gb Major Scale



012345678910111213141516171819202122






  Lefthanded scale finder   Patterns Chords Scales
 
Scale - Major
1,2,3,4,5,6,7

18-th pattern
Root note - F#/Gb

Guitar Tuning:


Tuning:

Vertical Patterns
Horizontal (4 notes per string)
Horizontal (3 notes per string)
Shifted v1
Shifted v2

|-----21-19-18--------------------------------------------------------------
|-----------------21-19-18--------------------------------------------------
|-----------------------------20-18------------------------------------------
|-------------------------------------21-20-18------------------------------
|-------------------------------------------------21-20-18------------------
|-------------------------------------------------------------21-19-18------

|-------------------------------------------------------------18-19-21------
|-------------------------------------------------18-19-21------------------
|-----------------------------------------18-20------------------------------
|-----------------------------18-20-21--------------------------------------
|-----------------18-20-21--------------------------------------------------
|-----18-19-21--------------------------------------------------------------

Copyright © 2004-2017 All-Guitar-Chords.com. All rights reserved.