new transposer      circle of 5ths    wap

D Phrygian Scale



012345678910111213141516171819202122






  Lefthanded scale finder   Patterns Chords Scales
 
Scale - Phrygian
1,b2,b3,4,5,b6,b7

18-th pattern
Root note - D

Guitar Tuning:


Tuning:

Vertical Patterns
Horizontal (4 notes per string)
Horizontal (3 notes per string)
Shifted v1
Shifted v2

|-----22-20-18-17----------------------------------------------------------
|---------------------20-18--------------------------------------------------
|-----------------------------20-19-17--------------------------------------
|-----------------------------------------20-19-17--------------------------
|-----------------------------------------------------20-18-17--------------
|-----------------------------------------------------------------20-18------

|---------------------------------------------------------17-18-20-22------
|-------------------------------------------------18-20----------------------
|-------------------------------------17-19-20------------------------------
|-------------------------17-19-20------------------------------------------
|-------------17-18-20------------------------------------------------------
|-----18-20------------------------------------------------------------------

Copyright © 2004-2017 All-Guitar-Chords.com. All rights reserved.