new transposer      circle of 5ths    wap

C Kumoi Scale



012345678910111213141516171819202122






  Lefthanded scale finder   Patterns Chords Scales
 
Scale - Kumoi
1,2,b3,5,6

18-th pattern
Root note - C

Guitar Tuning:


Tuning:

Vertical Patterns
Horizontal (4 notes per string)
Horizontal (3 notes per string)
Shifted v1
Shifted v2

|-----22-20-17------------------------------------------
|-----------------20--------------------------------------
|---------------------20-19-17--------------------------
|---------------------------------19-17------------------
|-----------------------------------------18-17----------
|-------------------------------------------------20------

|-----------------------------------------17-20-22------
|-------------------------------------20------------------
|-------------------------17-19-20----------------------
|-----------------17-19----------------------------------
|---------17-18------------------------------------------
|-----20--------------------------------------------------

Copyright © 2004-2009 All-Guitar-Chords.com. All rights reserved.