new transposer      circle of 5ths    wap

G Major Scale



012345678910111213141516171819202122






  Lefthanded scale finder   Patterns Chords Scales
 
Scale - Major
1,2,3,4,5,6,7

17-th pattern
Root note - G

Guitar Tuning:


Tuning:

Vertical Patterns
Horizontal (4 notes per string)
Horizontal (3 notes per string)
Shifted v1
Shifted v2

|-----20-19-17--------------------------------------------------------------
|-----------------20-19-17--------------------------------------------------
|-----------------------------19-17-16--------------------------------------
|-----------------------------------------19-17-16--------------------------
|-----------------------------------------------------19-17------------------
|-------------------------------------------------------------20-19-17------

|-------------------------------------------------------------17-19-20------
|-------------------------------------------------17-19-20------------------
|-------------------------------------16-17-19------------------------------
|-------------------------16-17-19------------------------------------------
|-----------------17-19------------------------------------------------------
|-----17-19-20--------------------------------------------------------------

Copyright © 2004-2009 All-Guitar-Chords.com. All rights reserved.