new transposer      circle of 5ths    wap

D Pentatonic Minor Scale



012345678910111213141516171819202122






  Lefthanded scale finder   Patterns Chords Scales
 
Scale - Pentatonic Minor
1,b3,4,5,b7

17-th pattern
Root note - D

Guitar Tuning:


Tuning:

Vertical Patterns
Horizontal (4 notes per string)
Horizontal (3 notes per string)
Shifted v1
Shifted v2

|-----20-17----------------------------------------------
|-------------20-18--------------------------------------
|---------------------19-17------------------------------
|-----------------------------19-17----------------------
|-------------------------------------20-17--------------
|---------------------------------------------20-17------

|---------------------------------------------17-20------
|-------------------------------------18-20--------------
|-----------------------------17-19----------------------
|---------------------17-19------------------------------
|-------------17-20--------------------------------------
|-----17-20----------------------------------------------

Copyright © 2004-2017 All-Guitar-Chords.com. All rights reserved.