new transposer      circle of 5ths    wap

G Pentatonic Major Scale



012345678910111213141516171819202122






  Lefthanded scale finder   Patterns Chords Scales
 
Scale - Pentatonic Major
1,2,3,5,6

16-th pattern
Root note - G

Guitar Tuning:


Tuning:

Vertical Patterns
Horizontal (4 notes per string)
Horizontal (3 notes per string)
Shifted v1
Shifted v2

|-----19-17-15------------------------------------------
|-----------------17-15----------------------------------
|-------------------------16------------------------------
|-----------------------------19-17----------------------
|-------------------------------------19-17--------------
|---------------------------------------------19-17------

|-----------------------------------------15-17-19------
|---------------------------------15-17------------------
|-----------------------------16--------------------------
|---------------------17-19------------------------------
|-------------17-19--------------------------------------
|-----17-19----------------------------------------------

Copyright © 2004-2009 All-Guitar-Chords.com. All rights reserved.