new transposer      circle of 5ths    wap

E Pentatonic Minor Scale



012345678910111213141516171819202122






  Lefthanded scale finder   Patterns Chords Scales
 
Scale - Pentatonic Minor
1,b3,4,5,b7

15-th pattern
Root note - E

Guitar Tuning:


Tuning:

Vertical Patterns
Horizontal (4 notes per string)
Horizontal (3 notes per string)
Shifted v1
Shifted v2

|-----19-17-15----------------------------------------------
|-----------------17-15--------------------------------------
|-------------------------16-14------------------------------
|---------------------------------17-14----------------------
|-----------------------------------------17-14--------------
|-------------------------------------------------17-15------

|---------------------------------------------15-17-19------
|-------------------------------------15-17------------------
|-----------------------------14-16--------------------------
|---------------------14-17----------------------------------
|-------------14-17------------------------------------------
|-----15-17--------------------------------------------------

Copyright © 2004-2017 All-Guitar-Chords.com. All rights reserved.