new transposer      circle of 5ths    wap

D Phrygian Scale



012345678910111213141516171819202122






  Lefthanded scale finder   Patterns Chords Scales
 
Scale - Phrygian
1,b2,b3,4,5,b6,b7

15-th pattern
Root note - D

Guitar Tuning:


Tuning:

Vertical Patterns
Horizontal (4 notes per string)
Horizontal (3 notes per string)
Shifted v1
Shifted v2

|-----18-17-15--------------------------------------------------------------
|-----------------18-16-15--------------------------------------------------
|-----------------------------17-15-14--------------------------------------
|-----------------------------------------17-15------------------------------
|-------------------------------------------------18-17-15------------------
|-------------------------------------------------------------18-17-15------

|-------------------------------------------------------------15-17-18------
|-------------------------------------------------15-16-18------------------
|-------------------------------------14-15-17------------------------------
|-----------------------------15-17------------------------------------------
|-----------------15-17-18--------------------------------------------------
|-----15-17-18--------------------------------------------------------------

Copyright © 2004-2017 All-Guitar-Chords.com. All rights reserved.