new transposer      circle of 5ths    wap

C Mixolydian Scale



012345678910111213141516171819202122






  Lefthanded scale finder   Patterns Chords Scales
 
Scale - Mixolydian
1,2,3,4,5,6,b7

15-th pattern
Root note - C

Guitar Tuning:


Tuning:

Vertical Patterns
Horizontal (4 notes per string)
Horizontal (3 notes per string)
Shifted v1
Shifted v2

|-----18-17-15--------------------------------------------------------------
|-----------------18-17-15--------------------------------------------------
|-----------------------------17-15-14--------------------------------------
|-----------------------------------------17-15-14--------------------------
|-----------------------------------------------------17-15------------------
|-------------------------------------------------------------18-17-15------

|-------------------------------------------------------------15-17-18------
|-------------------------------------------------15-17-18------------------
|-------------------------------------14-15-17------------------------------
|-------------------------14-15-17------------------------------------------
|-----------------15-17------------------------------------------------------
|-----15-17-18--------------------------------------------------------------

Copyright © 2004-2009 All-Guitar-Chords.com. All rights reserved.