new transposer      circle of 5ths    wap

G Major Scale



012345678910111213141516171819202122






  Lefthanded scale finder   Patterns Chords Scales
 
Scale - Major
1,2,3,4,5,6,7

14-th pattern
Root note - G

Guitar Tuning:


Tuning:

Vertical Patterns
Horizontal (4 notes per string)
Horizontal (3 notes per string)
Shifted v1
Shifted v2

|-----17-15-14--------------------------------------------------------------
|-----------------17-15-13--------------------------------------------------
|-----------------------------16-14------------------------------------------
|-------------------------------------17-16-14------------------------------
|-------------------------------------------------17-15-14------------------
|-------------------------------------------------------------17-15-14------

|-------------------------------------------------------------14-15-17------
|-------------------------------------------------13-15-17------------------
|-----------------------------------------14-16------------------------------
|-----------------------------14-16-17--------------------------------------
|-----------------14-15-17--------------------------------------------------
|-----14-15-17--------------------------------------------------------------

Copyright © 2004-2009 All-Guitar-Chords.com. All rights reserved.