new transposer      circle of 5ths    wap

E Spanish Gypsy Scale



012345678910111213141516171819202122






  Lefthanded scale finder   Patterns Chords Scales
 
Scale - Spanish Gypsy
1,b2,3,4,5,b6,b7

14-th pattern
Root note - E

Guitar Tuning:


Tuning:

Vertical Patterns
Horizontal (4 notes per string)
Horizontal (3 notes per string)
Shifted v1
Shifted v2

|-----17-16-13----------------------------------------------------------
|-----------------17-15-13----------------------------------------------
|-----------------------------16-14-13----------------------------------
|-----------------------------------------15-14--------------------------
|-------------------------------------------------17-15-14--------------
|-------------------------------------------------------------17-16------

|---------------------------------------------------------13-16-17------
|---------------------------------------------13-15-17------------------
|---------------------------------13-14-16------------------------------
|-------------------------14-15------------------------------------------
|-------------14-15-17--------------------------------------------------
|-----16-17--------------------------------------------------------------

Copyright © 2004-2009 All-Guitar-Chords.com. All rights reserved.