new transposer      circle of 5ths    wap

D Blues Scale



012345678910111213141516171819202122






  Lefthanded scale finder   Patterns Chords Scales
 
Scale - Blues
1,b3,4,#4,5,b7

14-th pattern
Root note - D

Guitar Tuning:


Tuning:

Vertical Patterns
Horizontal (4 notes per string)
Horizontal (3 notes per string)
Shifted v1
Shifted v2

|-----17-16-15-13--------------------------------------------------
|---------------------15-13------------------------------------------
|-----------------------------14-13----------------------------------
|-------------------------------------17-15--------------------------
|---------------------------------------------17-15------------------
|-----------------------------------------------------17-16-15------

|-------------------------------------------------13-15-16-17------
|-----------------------------------------13-15----------------------
|---------------------------------13-14------------------------------
|-------------------------15-17--------------------------------------
|-----------------15-17----------------------------------------------
|-----15-16-17------------------------------------------------------

Copyright © 2004-2017 All-Guitar-Chords.com. All rights reserved.