new transposer      circle of 5ths    wap

G Mixolydian Scale



012345678910111213141516171819202122






  Lefthanded scale finder   Patterns Chords Scales
 
Scale - Mixolydian
1,2,3,4,5,6,b7

13-th pattern
Root note - G

Guitar Tuning:


Tuning:

Vertical Patterns
Horizontal (4 notes per string)
Horizontal (3 notes per string)
Shifted v1
Shifted v2

|-----17-15-13-12----------------------------------------------------------
|---------------------15-13-12----------------------------------------------
|---------------------------------14-12--------------------------------------
|-----------------------------------------15-14-12--------------------------
|-----------------------------------------------------15-14-12--------------
|-----------------------------------------------------------------15-13------

|---------------------------------------------------------12-13-15-17------
|---------------------------------------------12-13-15----------------------
|-------------------------------------12-14----------------------------------
|-------------------------12-14-15------------------------------------------
|-------------12-14-15------------------------------------------------------
|-----13-15------------------------------------------------------------------

Copyright © 2004-2009 All-Guitar-Chords.com. All rights reserved.