new transposer      circle of 5ths    wap

E Harmonic Minor Scale



012345678910111213141516171819202122






  Lefthanded scale finder   Patterns Chords Scales
 
Scale - Harmonic Minor
1,2,b3,4,5,b6,7

13-th pattern
Root note - E

Guitar Tuning:


Tuning:

Vertical Patterns
Horizontal (4 notes per string)
Horizontal (3 notes per string)
Shifted v1
Shifted v2

|-----17-15-14-12----------------------------------------------------------
|---------------------16-13-12----------------------------------------------
|---------------------------------14-12--------------------------------------
|-----------------------------------------16-14-13--------------------------
|-----------------------------------------------------15-14-12--------------
|-----------------------------------------------------------------15-14------

|---------------------------------------------------------12-14-15-17------
|---------------------------------------------12-13-16----------------------
|-------------------------------------12-14----------------------------------
|-------------------------13-14-16------------------------------------------
|-------------12-14-15------------------------------------------------------
|-----14-15------------------------------------------------------------------

Copyright © 2004-2017 All-Guitar-Chords.com. All rights reserved.