new transposer      circle of 5ths    wap

D Aeolian Scale



012345678910111213141516171819202122






  Lefthanded scale finder   Patterns Chords Scales
 
Scale - Aeolian
1,2,b3,4,5,b6,b7

13-th pattern
Root note - D

Guitar Tuning:


Tuning:

Vertical Patterns
Horizontal (4 notes per string)
Horizontal (3 notes per string)
Shifted v1
Shifted v2

|-----17-15-13-12----------------------------------------------------------
|---------------------15-13--------------------------------------------------
|-----------------------------15-14-12--------------------------------------
|-----------------------------------------15-14-12--------------------------
|-----------------------------------------------------15-13-12--------------
|-----------------------------------------------------------------15-13------

|---------------------------------------------------------12-13-15-17------
|-------------------------------------------------13-15----------------------
|-------------------------------------12-14-15------------------------------
|-------------------------12-14-15------------------------------------------
|-------------12-13-15------------------------------------------------------
|-----13-15------------------------------------------------------------------

Copyright © 2004-2017 All-Guitar-Chords.com. All rights reserved.