new transposer      circle of 5ths    wap

C Kumoi Scale



012345678910111213141516171819202122






  Lefthanded scale finder   Patterns Chords Scales
 
Scale - Kumoi
1,2,b3,5,6

13-th pattern
Root note - C

Guitar Tuning:


Tuning:

Vertical Patterns
Horizontal (4 notes per string)
Horizontal (3 notes per string)
Shifted v1
Shifted v2

|-----17-15----------------------------------------------
|-------------16-15-13----------------------------------
|-------------------------14-12--------------------------
|---------------------------------13-12------------------
|-----------------------------------------15-12----------
|-------------------------------------------------15------

|---------------------------------------------15-17------
|---------------------------------13-15-16--------------
|-------------------------12-14--------------------------
|-----------------12-13----------------------------------
|---------12-15------------------------------------------
|-----15--------------------------------------------------

Copyright © 2004-2009 All-Guitar-Chords.com. All rights reserved.