new transposer      circle of 5ths    wap

F#/Gb Major Scale



012345678910111213141516171819202122






  Lefthanded scale finder   Patterns Chords Scales
 
Scale - Major
1,2,3,4,5,6,7

12-th pattern
Root note - F#/Gb

Guitar Tuning:


Tuning:

Vertical Patterns
Horizontal (4 notes per string)
Horizontal (3 notes per string)
Shifted v1
Shifted v2

|-----16-14-13-11----------------------------------------------------------
|---------------------14-12-11----------------------------------------------
|---------------------------------13-11--------------------------------------
|-----------------------------------------15-13-11--------------------------
|-----------------------------------------------------14-13-11--------------
|-----------------------------------------------------------------14-13------

|---------------------------------------------------------11-13-14-16------
|---------------------------------------------11-12-14----------------------
|-------------------------------------11-13----------------------------------
|-------------------------11-13-15------------------------------------------
|-------------11-13-14------------------------------------------------------
|-----13-14------------------------------------------------------------------

Copyright © 2004-2017 All-Guitar-Chords.com. All rights reserved.