new transposer      circle of 5ths    wap

E Spanish Gypsy Scale



012345678910111213141516171819202122






  Lefthanded scale finder   Patterns Chords Scales
 
Scale - Spanish Gypsy
1,b2,3,4,5,b6,b7

12-th pattern
Root note - E

Guitar Tuning:
Standard - E-A-D-G-B-E


Tuning:

Vertical Patterns
Horizontal (4 notes per string)
Horizontal (3 notes per string)
Shifted v1
Shifted v2

|-----16-13-12--------------------------------------------------------------
|-----------------15-13-12--------------------------------------------------
|-----------------------------14-13------------------------------------------
|-------------------------------------15-14-12------------------------------
|-------------------------------------------------15-14-12-11--------------
|-----------------------------------------------------------------13-12------

|-------------------------------------------------------------12-13-16------
|-------------------------------------------------12-13-15------------------
|-----------------------------------------13-14------------------------------
|-----------------------------12-14-15--------------------------------------
|-------------11-12-14-15--------------------------------------------------
|-----12-13------------------------------------------------------------------

Copyright © 2004-2009 All-Guitar-Chords.com. All rights reserved.