new transposer      circle of 5ths    wap

E Japanese (in sen) Scale



012345678910111213141516171819202122






  Lefthanded scale finder   Patterns Chords Scales
 
Scale - Japanese (in sen)
1,b2,4,5,b7

12-th pattern
Root note - E

Guitar Tuning:
Standard - E-A-D-G-B-E


Tuning:

Vertical Patterns
Horizontal (4 notes per string)
Horizontal (3 notes per string)
Shifted v1
Shifted v2

|-----13-12----------------------------------------------
|-------------15-12--------------------------------------
|---------------------14----------------------------------
|-------------------------15-14-12----------------------
|-------------------------------------14-12--------------
|---------------------------------------------13-12------

|---------------------------------------------12-13------
|-------------------------------------12-15--------------
|---------------------------------14----------------------
|---------------------12-14-15--------------------------
|-------------12-14--------------------------------------
|-----12-13----------------------------------------------

Copyright © 2004-2017 All-Guitar-Chords.com. All rights reserved.