new transposer      circle of 5ths    wap

E Harmonic Minor Scale



012345678910111213141516171819202122






  Lefthanded scale finder   Patterns Chords Scales
 
Scale - Harmonic Minor
1,2,b3,4,5,b6,7

12-th pattern
Root note - E

Guitar Tuning:


Tuning:

Vertical Patterns
Horizontal (4 notes per string)
Horizontal (3 notes per string)
Shifted v1
Shifted v2

|-----15-14-12-11----------------------------------------------------------
|---------------------13-12--------------------------------------------------
|-----------------------------14-12-11--------------------------------------
|-----------------------------------------14-13------------------------------
|-------------------------------------------------15-14-12------------------
|-------------------------------------------------------------15-14-12------

|---------------------------------------------------------11-12-14-15------
|-------------------------------------------------12-13----------------------
|-------------------------------------11-12-14------------------------------
|-----------------------------13-14------------------------------------------
|-----------------12-14-15--------------------------------------------------
|-----12-14-15--------------------------------------------------------------

Copyright © 2004-2017 All-Guitar-Chords.com. All rights reserved.