new transposer      circle of 5ths    wap

C Major Scale



012345678910111213141516171819202122






  Lefthanded scale finder   Patterns Chords Scales
 
Scale - Major
1,2,3,4,5,6,7

12-th pattern
Root note - C

Guitar Tuning:


Tuning:

Vertical Patterns
Horizontal (4 notes per string)
Horizontal (3 notes per string)
Shifted v1
Shifted v2

|--------------------------------------------------------------------------
|--------------------------------------------------------------------------
|-----22-21-19-17------------------------------------------------------
|---------------------21-19-17-15--------------------------------------
|-------------------------------------19-17-15-14----------------------
|-----------------------------------------------------17-15-13-12------

|--------------------------------------------------------------------------
|--------------------------------------------------------------------------
|------------------------------------------------------17--19--21--22------
|--------------------------------------15--17--19--21----------------------
|----------------------14--15--17--19--------------------------------------
|------12--13--15--17------------------------------------------------------

Copyright © 2004-2017 All-Guitar-Chords.com. All rights reserved.