new transposer      circle of 5ths    wap

C Lydian Scale



012345678910111213141516171819202122






  Lefthanded scale finder   Patterns Chords Scales
 
Scale - Lydian
1,2,3,#4,5,6,7

12-th pattern
Root note - C

Guitar Tuning:


Tuning:

Vertical Patterns
Horizontal (4 notes per string)
Horizontal (3 notes per string)
Shifted v1
Shifted v2

|-----15-14-12--------------------------------------------------------------
|-----------------15-13-12--------------------------------------------------
|-----------------------------14-12-11--------------------------------------
|-----------------------------------------14-12------------------------------
|-------------------------------------------------15-14-12------------------
|-------------------------------------------------------------15-14-12------

|-------------------------------------------------------------12-14-15------
|-------------------------------------------------12-13-15------------------
|-------------------------------------11-12-14------------------------------
|-----------------------------12-14------------------------------------------
|-----------------12-14-15--------------------------------------------------
|-----12-14-15--------------------------------------------------------------

Copyright © 2004-2009 All-Guitar-Chords.com. All rights reserved.