new transposer      circle of 5ths    wap

C Kumoi Scale



012345678910111213141516171819202122






  Lefthanded scale finder   Patterns Chords Scales
 
Scale - Kumoi
1,2,b3,5,6

11-th pattern
Root note - C

Guitar Tuning:


Tuning:

Vertical Patterns
Horizontal (4 notes per string)
Horizontal (3 notes per string)
Shifted v1
Shifted v2

|-----15-11-10------------------------------------------
|-----------------13-10----------------------------------
|-------------------------12------------------------------
|-----------------------------13-12-10------------------
|-----------------------------------------12-10----------
|-------------------------------------------------11------

|-----------------------------------------10-11-15------
|---------------------------------10-13------------------
|-----------------------------12--------------------------
|-----------------10-12-13------------------------------
|---------10-12------------------------------------------
|-----11--------------------------------------------------

Copyright © 2004-2009 All-Guitar-Chords.com. All rights reserved.