new transposer      circle of 5ths    wap

A#/Bb Lydian Scale



012345678910111213141516171819202122






  Lefthanded scale finder   Patterns Chords Scales
 
Scale - Lydian
1,2,3,#4,5,6,7

11-th pattern
Root note - A#/Bb

Guitar Tuning:


Tuning:

Vertical Patterns
Horizontal (4 notes per string)
Horizontal (3 notes per string)
Shifted v1
Shifted v2

|-----15-13-12-10----------------------------------------------------------
|---------------------13-11-10----------------------------------------------
|---------------------------------12-10--------------------------------------
|-----------------------------------------14-12-10--------------------------
|-----------------------------------------------------13-12-10--------------
|-----------------------------------------------------------------13-12------

|---------------------------------------------------------10-12-13-15------
|---------------------------------------------10-11-13----------------------
|-------------------------------------10-12----------------------------------
|-------------------------10-12-14------------------------------------------
|-------------10-12-13------------------------------------------------------
|-----12-13------------------------------------------------------------------

Copyright © 2004-2009 All-Guitar-Chords.com. All rights reserved.