new transposer      circle of 5ths    wap

G Mixolydian Scale



012345678910111213141516171819202122






  Lefthanded scale finder   Patterns Chords Scales
 
Scale - Mixolydian
1,2,3,4,5,6,b7

10-th pattern
Root note - G

Guitar Tuning:


Tuning:

Vertical Patterns
Horizontal (4 notes per string)
Horizontal (3 notes per string)
Shifted v1
Shifted v2

|-----13-12-10------------------------------------------------------------
|-----------------13-12-10------------------------------------------------
|-----------------------------12-10--9-------------------------------------
|----------------------------------------12-10--9--------------------------
|---------------------------------------------------12-10------------------
|-----------------------------------------------------------13-12-10------

|-----------------------------------------------------------10-12-13------
|-----------------------------------------------10-12-13------------------
|-------------------------------------9-10-12------------------------------
|--------------------------9-10-12-----------------------------------------
|-----------------10-12----------------------------------------------------
|-----10-12-13------------------------------------------------------------

Copyright © 2004-2009 All-Guitar-Chords.com. All rights reserved.