new transposer      circle of 5ths    wap

E Harmonic Minor Scale



012345678910111213141516171819202122






  Lefthanded scale finder   Patterns Chords Scales
 
Scale - Harmonic Minor
1,2,b3,4,5,b6,7

10-th pattern
Root note - E

Guitar Tuning:


Tuning:

Vertical Patterns
Horizontal (4 notes per string)
Horizontal (3 notes per string)
Shifted v1
Shifted v2

|-----14-12-11-----------------------------------------------------------
|-----------------13-12-10-----------------------------------------------
|-----------------------------12-11--9------------------------------------
|----------------------------------------13-10--9-------------------------
|---------------------------------------------------12-10--9--------------
|--------------------------------------------------------------12-11------

|----------------------------------------------------------11-12-14------
|----------------------------------------------10-12-13------------------
|------------------------------------9-11-12------------------------------
|-------------------------9-10-13-----------------------------------------
|--------------9-10-12----------------------------------------------------
|-----11-12---------------------------------------------------------------

Copyright © 2004-2017 All-Guitar-Chords.com. All rights reserved.