new transposer      circle of 5ths    wap

D Blues Scale



012345678910111213141516171819202122






  Lefthanded scale finder   Patterns Chords Scales
 
Scale - Blues
1,b3,4,#4,5,b7

10-th pattern
Root note - D

Guitar Tuning:


Tuning:

Vertical Patterns
Horizontal (4 notes per string)
Horizontal (3 notes per string)
Shifted v1
Shifted v2

|-----13-10-----------------------------------------------------
|-------------13-10--9------------------------------------------
|------------------------12-10----------------------------------
|--------------------------------12-10--------------------------
|----------------------------------------12-11-10--------------
|----------------------------------------------------13-10------

|----------------------------------------------------10-13------
|------------------------------------------9-10-13--------------
|---------------------------------10-12-------------------------
|-------------------------10-12---------------------------------
|-------------10-11-12-----------------------------------------
|-----10-13-----------------------------------------------------

Copyright © 2004-2017 All-Guitar-Chords.com. All rights reserved.