new transposer      circle of 5ths    wap

E Spanish Gypsy Scale



012345678910111213141516171819202122






  Lefthanded scale finder   Patterns Chords Scales
 
Scale - Spanish Gypsy
1,b2,3,4,5,b6,b7

1-th pattern
Root note - E

Guitar Tuning:


Tuning:

Vertical Patterns
Horizontal (4 notes per string)
Horizontal (3 notes per string)
Shifted v1
Shifted v2

|------5--4--1--0---------------------------------------------
|------------------3--1--0------------------------------------
|---------------------------2--1------------------------------
|---------------------------------3--2--0---------------------
|------------------------------------------3--2--0------------
|---------------------------------------------------4--1------

|---------------------------------------------0--1--4--5------
|------------------------------------0--1--3------------------
|------------------------------1--2---------------------------
|---------------------0--2--3---------------------------------
|------------0--2--3------------------------------------------
|------1--4---------------------------------------------------

Copyright © 2004-2009 All-Guitar-Chords.com. All rights reserved.