new transposer      circle of 5ths    wap

E Pentatonic Major Scale



012345678910111213141516171819202122






  Lefthanded scale finder   Patterns Chords Scales
 
Scale - Pentatonic Major
1,2,3,5,6

1-th pattern
Root note - E

Guitar Tuning:
Standard - E-A-D-G-B-E


Tuning:

Vertical Patterns
Horizontal (4 notes per string)
Horizontal (3 notes per string)
Shifted v1
Shifted v2

|------4--2--0---------------------------------
|---------------2--0---------------------------
|---------------------1------------------------
|------------------------4--2------------------
|------------------------------4--2------------
|------------------------------------4--2------

|---------------------------------0--2--4------
|---------------------------0--2---------------
|------------------------1---------------------
|------------------2--4------------------------
|------------2--4------------------------------
|------2--4------------------------------------

Copyright © 2004-2017 All-Guitar-Chords.com. All rights reserved.