new transposer      circle of 5ths    wap

E Pentatonic Blues Scale



012345678910111213141516171819202122






  Lefthanded scale finder   Patterns Chords Scales
 
Scale - Pentatonic Blues
1,b3,4,b5,5,b7

1-th pattern
Root note - E

Guitar Tuning:
Standard - E-A-D-G-B-E


Tuning:

Vertical Patterns
Horizontal (4 notes per string)
Horizontal (3 notes per string)
Shifted v1
Shifted v2

|------5--3--0---------------------------------------
|---------------3--0---------------------------------
|---------------------3--2--0------------------------
|------------------------------2--0------------------
|------------------------------------2--1--0---------
|---------------------------------------------3------

|---------------------------------------0--3--5------
|---------------------------------0--3---------------
|------------------------0--2--3---------------------
|------------------0--2------------------------------
|---------0--1--2------------------------------------
|------3---------------------------------------------

Copyright © 2004-2017 All-Guitar-Chords.com. All rights reserved.