new transposer      circle of 5ths    wap

D Major Scale



012345678910111213141516171819202122






  Lefthanded scale finder   Patterns Chords Scales
 
Scale - Major
1,2,3,4,5,6,7

1-th pattern
Root note - D

Guitar Tuning:


Tuning:

Vertical Patterns
Horizontal (4 notes per string)
Horizontal (3 notes per string)
Shifted v1
Shifted v2

|------5--3--2--0---------------------------------------------
|------------------3--2--0------------------------------------
|---------------------------2--0------------------------------
|---------------------------------4--2--0---------------------
|------------------------------------------4--2--0------------
|---------------------------------------------------3--2------

|---------------------------------------------0--2--3--5------
|------------------------------------0--2--3------------------
|------------------------------0--2---------------------------
|---------------------0--2--4---------------------------------
|------------0--2--4------------------------------------------
|------2--3---------------------------------------------------

Copyright © 2004-2017 All-Guitar-Chords.com. All rights reserved.