new transposer      circle of 5ths    wap

D Blues Scale



012345678910111213141516171819202122






  Lefthanded scale finder   Patterns Chords Scales
 
Scale - Blues
1,b3,4,#4,5,b7

1-th pattern
Root note - D

Guitar Tuning:


Tuning:

Vertical Patterns
Horizontal (4 notes per string)
Horizontal (3 notes per string)
Shifted v1
Shifted v2

|------5--4--3--1------------------------------------------
|------------------3--1------------------------------------
|------------------------2--1--0---------------------------
|---------------------------------3--0---------------------
|---------------------------------------3--0---------------
|---------------------------------------------4--3--1------

|------------------------------------------1--3--4--5------
|------------------------------------1--3------------------
|---------------------------0--1--2------------------------
|---------------------0--3---------------------------------
|---------------0--3---------------------------------------
|------1--3--4---------------------------------------------

Copyright © 2004-2017 All-Guitar-Chords.com. All rights reserved.