new transposer      circle of 5ths    wap

C Mixolydian Scale



012345678910111213141516171819202122






  Lefthanded scale finder   Patterns Chords Scales
 
Scale - Mixolydian
1,2,3,4,5,6,b7

1-th pattern
Root note - C

Guitar Tuning:


Tuning:

Vertical Patterns
Horizontal (4 notes per string)
Horizontal (3 notes per string)
Shifted v1
Shifted v2

|------5--3--1--0---------------------------------------------
|------------------3--1---------------------------------------
|------------------------3--2--0------------------------------
|---------------------------------3--2--0---------------------
|------------------------------------------3--1--0------------
|---------------------------------------------------3--1------

|---------------------------------------------0--1--3--5------
|---------------------------------------1--3------------------
|------------------------------0--2--3------------------------
|---------------------0--2--3---------------------------------
|------------0--1--3------------------------------------------
|------1--3---------------------------------------------------

Copyright © 2004-2009 All-Guitar-Chords.com. All rights reserved.