new transposer      circle of 5ths    wap

C Kumoi Scale



012345678910111213141516171819202122






  Lefthanded scale finder   Patterns Chords Scales
 
Scale - Kumoi
1,2,b3,5,6

1-th pattern
Root note - C

Guitar Tuning:


Tuning:

Vertical Patterns
Horizontal (4 notes per string)
Horizontal (3 notes per string)
Shifted v1
Shifted v2

|------5--3------------------------------------
|------------4--3--1---------------------------
|---------------------2--0---------------------
|---------------------------1--0---------------
|---------------------------------3--0---------
|---------------------------------------3------

|------------------------------------3--5------
|---------------------------1--3--4------------
|---------------------0--2---------------------
|---------------0--1---------------------------
|---------0--3---------------------------------
|------3---------------------------------------

Copyright © 2004-2009 All-Guitar-Chords.com. All rights reserved.