new transposer      circle of 5ths    wap

F#/Gb Major Scale



012345678910111213141516171819202122






  Lefthanded scale finder   Patterns Chords Scales
 
Scale - Major
1,2,3,4,5,6,7

0-th pattern
Root note - F#/Gb

Guitar Tuning:


Tuning:

Vertical Patterns
Horizontal (4 notes per string)
Horizontal (3 notes per string)
Shifted v1
Shifted v2

|------4--2--1---------------------------------
|---------------2--0---------------------------
|---------------------1------------------------
|------------------------3--1------------------
|------------------------------2--1------------
|------------------------------------2--1------

|---------------------------------1--2--4------
|---------------------------0--2---------------
|------------------------1---------------------
|------------------1--3------------------------
|------------1--2------------------------------
|------1--2------------------------------------

Copyright © 2004-2017 All-Guitar-Chords.com. All rights reserved.