new transposer      circle of 5ths    wap

C Major Scale



012345678910111213141516171819202122






  Lefthanded scale finder   Patterns Chords Scales
 
Scale - Major
1,2,3,4,5,6,7

0-th pattern
Root note - C

Guitar Tuning:


Tuning:

Vertical Patterns
Horizontal (4 notes per string)
Horizontal (3 notes per string)
Shifted v1
Shifted v2

|-----15-13-12-10----------------------------------------------------------------------
|---------------------13-12-10--8-------------------------------------------------------
|------------------------------------10--9--7--5------------------------------------------
|--------------------------------------------------9--7--5--3------------------------------
|--------------------------------------------------------------7--5--3--2------------------
|--------------------------------------------------------------------------5--3--1--0------

|----------------------------------------------------------------------10--12--13--15------
|-------------------------------------------------------8--10--12--13----------------------
|------------------------------------------5--7--9--10-------------------------------------
|------------------------------3--5--7--9--------------------------------------------------
|------------------2--3--5--7--------------------------------------------------------------
|------0--1--3--5--------------------------------------------------------------------------

Copyright © 2004-2017 All-Guitar-Chords.com. All rights reserved.